Free Essay

Sddasda

In: Social Issues

Submitted By jalalaa
Words 1083
Pages 5
This is tabbed with capo. To play w/o capo, just move up a fret.
(meaning if you play a string open w/ capo, play that string on first fret w/o capo) Guitar 1

Riff 1 e|---------------------------------------------------------------------------| B|-------1-----0-----0---1--------------------------------0------------------|
G|-----2---2-----2-----2---2-------------2------------0-----0----------------|
D|---2-------2-----2---------2---------3---3-------0----0-----0--------------|
A|-0---------------------------0-----3-------3--2----------------------------|
E|---------------------------------1------------3----------------------------|

Riff 2 e|---------------------------------------------------------------------------| B|-------1-----0-----0---1--------------0-----1-----0-----1/3----------------|
G|-----2---2-----2-----2---2----------0----0-----0-----0---------------------|
D|---2-------2-----2---------2------0----------------------------------------|
A|-0---------------------------0---------------------------------------------|
E|--------------------------------3------------------------------------------|

These are the riffs for the Intro and Verse's. The first Chorus is a variation of these riffs, though I don't know it. The second Chorus I believe is yet another variation of these riffs which is played over Guitar 2 (also don't know, sadly enough).

Guitar 2 - Doesn't play much. Just the chords in the chorus. In the first chorus,
Guitar 2 doesn't play.
Since not everyone has a violin or someone to play it, Guitar 2 can just play these chords where the violins would be.

C G Am F e|------3-------3-------0-------1--------------------------------------------| B|------3-------3-------1-------1--------------------------------------------|
G|------5-------4-------2-------2--------------------------------------------|
D|------5-------5-------2-------3--------------------------------------------|
A|------3-------5-------0-------3--------------------------------------------|
E|------3-------3---------------1--------------------------------------------|

Chorus:

C G
I'm here without you baby, but your still on my lonely mind
Am F G
I think about you baby, and I dream about you all the time
C G Am
I’m here without you baby, but your still with me in my dreams F G
And tonight it’s only you and me

Bridge:

Am C
Everything I know, and anywhere I go
G F it gets hard but it won’t take away my love
Am C
And when the last one falls, when it’s all said and done
G F C G Am F G it get hard but it won’t take away my love

Chorus:

C G
I'm here without you baby, but your still on my lonely mind
Am F G
I think about you baby, and I dream about you all the time
C G Am
I’m here without you baby, but your still with me in my dreams F G C G Am F G
And tonight it’s only you and me

-----------------------------------------------------------------------------------

Wings - Taman Rashidah Utama

Em D Em Ku berjalan di dalam hujan Em D Mencari api yang terpadam G Am Namun sudah sekian lama B Em Hanyalah gelap gelita

C Bm Sebagai satu kenangan C Bm Kuciptakan satu taman C Am B Em Rashidah Utama sebuah kubur cinta

G Am Ku berpijak nyata di sini C B Tak tercapai bintang di langit Em C Ku siramkan air mata pada darah cinta D B Em Sebagai hiasan taman ini

F Em Rashidah Utama F Em Sebuah kubur cinta F Em Rashidah Utama F Em Sebuah kubur cinta

Em D Em Biarkanlah aku di sini Em D Menjadi nisan cinta ini G Am Izinkanlah aku mengenang B Em D Em.... Dirimu oh sayang aaaaa.... ...wings

--------------------------------------------------------------------------------------------------------------------------------------

Hujan - Kotak Hati

G Dm tak usah kau terangkan ku tahu

C Am potret wajahmu di setiap penjuru

G Dm curahkan deritamu padaku

C Am biarku rasa apa yang kau lalu

Chorus:

Am G Terang terang....
C
bersama rasa sayang
Em
ku biarkan kau terbang
Am G terang terang
C
sudut kecil ku isi
Am
untuk senyuman mu lagi

Continue as usual

Berbaring renung kita ke bulan lagu yang ku tulis ku nyanyikan lagu cinta tentang kita berdua yang kan kita kenangi hingga tiba masa

Terang terang bersama rasa sayang ku biarkan kau terbang terang terang sudut kecil ku isi untuk senyuman mu lagi

Mimpi mimpi yang tak kembali aku janji janji takkan pergi

Tak usah kau terangkan ku tahu potret wajahmu di setiap penjuru curahkan deritamu padaku biarku rasa apa yang kau lalu

Terang terang bersama rasa sayang ku biarkan kau terbang terang terang sudut kecil ku isi untuk senyuman mu lagi

Mimpi mimpi yang tak kembali aku janji janji takkan pergi

---------------------------------------------------------------------------------------------------------------------------------------------------

Mojo – Andai Ku Bercinta Lagi Lyrics & Chord
Intro: Cm G# A# Cm G# A# Cm

Cm
Kini kau tiada
G# A#
Senafas pun ku perlu mencuba
Cm
Kau bawa pergi
G# A# sebahagian dari jiwa raga

Dm G C
Bersendiri hidup umpama hilang erti
Cm B G
Bagaimanakah meneruskan hayat ini

Cm Fm A# D#
Andai ku bercinta lagi suatu hari nanti
G#
Tunjukkan di mana
Fm G Cm C
Ruang hati untuknya yang masih belum kau huni?

Fm A# D#
Apabila tiba waktu bersemuka
G# Fm G G#
Ku perlu pejamkan mata dan memaksa lafaz cinta
A# Cm
Dengan bayangmu di minda

Cm G# A#
Tiada pengganti bisa hadir dan mampu menyembuh
Cm G# A#
Rawan di hati meleraikan semangat ku runtuh

Dm G C
Bersendiri masa umpama tak beralih
Am D G
Berapa lama lagi harus ku merintih

Am B G
Malam tidak berpurnama
Gm C F
Fajar tiada kejora
Fm G Cm F
Aku hilang di dalam gelita kalbu
Fm G
Tanpa dirimu asaku mati

-------------------------------------------------------------------------------------------------------------------------------------

Awi Rafael – Bila Aku Jatuh Cinta Lyrics & Chord
Intro: G D F E G D

Am C G D
Bisakah ku tanpamu
Am C G D
Bisakah ku tanpamu
Am C
Hatiku mulai rapuh
G D
Hatiku mulai sepi
Am C G D
Bisakah ku tanpamu

G
Bila aku jatuh cinta
Bm
Kan ku sebut namamu
C
Kan ku tulis lagumu
Cm C
Akan ku katakan kata-kata indah
Em E
Hanya untukmu

Am C G D
Relakah ku tanpamu
Am C G D
Relakah ku tanpamu

G
Bila aku jatuh cinta
Bm
Kan ku sebut namamu
C
Kan ku tulis lagumu
Cm C
Akan ku katakan kata-kata indah

G
Bila aku jatuh cinta
Bm
Kan ku doakan kamu
C
Menyempurnakan aku
Cm C
Akan ku buatkan semua yang terindah

-------------------------------------------------------------------------------------------------------------------------------------

Gio – Bila Cinta ( ost Lagenda Budak Setan male version) Lyrics & Chord

(Standard Tuning)

Intro : Am Dm F E Am
Bila cinta kini Dm
Tak lagi bermakna G
Yang ku rasa kini C
Hanyalah nestapa
F E Am F-E
Ditinggalkan cinta masa lalu Am
Dulu kau tawarkan Dm
Manisnya janjimu G
Yang ku sambut itu C
Dengan segenap hatiku
F E Am
Hingga engkau pergi Tinggalkanku
Chorus
A Dm Hilangnya cintamu
G C
Menusuk hatiku
F Dm
Hinggaku memilih
E Am
Cinta yang fana A Dm Perginya dirimu
G C merobek jantungku
F Dm
Hinggaku terjatuh
E Am
Dalam harapan
--------------------------------------------------------------------------------------------------------------------------------------…...

Similar Documents